Am three note per string Scales and two finger pentatonics

e|--------------------------------5-7-8-|
B|--------------------------5-6-8-------|
G|--------------------4-5-7-------------|
D|--------------3-5-7-------------------|
A|--------3-5-7-------------------------|
E|--3-5-7-------------------------------|

This 3 note per string pattern mode list is.
G Mixolydian (third fret E string)
Am Aeolian (fifth fret E string)
B Locrian (seventh fret E string)
C Maj Ionian (third fret A string)
D Dorian (fifth fret A string)
E Phrygian (seventh fret A string)
F Lydian (third fret D string)

|---------------------------------7-8-10-|
|--------------------------6-8-10--------|
|--------------------5-7-9---------------|
|--------------5-7-9---------------------|
|--------5-7-8---------------------------|
|--5-7-8---------------------------------|

This 3 note per string pattern mode list is.
Am Aeolian (fifth fret E string)
B Locrian (seventh fret E string)
C Maj Ionian (eighth fret E string)
D Dorian (fifth fret A string)
E Phrygian (seventh fret A string)
F Lydian (eighth fret A string)
G Mixolydian (fifth fret D string)

The next run is combining the evenly spaced fingerings from the two previous patterns to make an easy to finger scale run with two slides and a position shift.

|----------------------------------------8-10-12-13-15-17-|
|-----------------------------6-8-10/12-------------------|
|-----------------------5-7-9-----------------------------|
|--------------3-5-7/9------------------------------------|
|--------3-5-7--------------------------------------------|
|--3-5-7--------------------------------------------------|
   7 R 2 3 4 5 6 7 R 2  3 4 5 6 7 R  2   3 4  5  6  7  R

The tab above is for a three octave Am run starting starting at the seventh scale degree G on the low E string. The fingering for the pattern Index, Middle, Pinky and the slides are with the Pinky.

|-----------------------------8-10-8----|
|------------------------8-10--------10-|
|-----------------5-7/9-----------------|
|-------------5-7-----------------------|
|------3-5/7----------------------------|
|--3-5----------------------------------|

The tab above is for a two finger Am Pentatonic Run. It starts on the seventh scale degree which is the G note at the third fret of the low E string. The fingering for the pattern is Index and Ring with the Ring finger sliding.

|------------------------------10-12-|
|---------------------8-10/12--------|
|-----------------7-9----------------|
|----------5-7/9---------------------|
|------5-7---------------------------|
|--5-7-------------------------------|

The tab above is for a two finger Em Pentatonic Run. It starts on the Fourth scale degree which is the A note at the fifth fret of the low E string. The fingering for the pattern is Index and Ring with the Ring finger sliding.